Le Forum Jaune

Désormais moribond
 
AccueilAccueil  RechercherRechercher  S'enregistrerS'enregistrer  ConnexionConnexion  Le Raton LaveurLe Raton Laveur  

Partagez | 
 

 maurice au bistro(violon converti en guitare)

Voir le sujet précédent Voir le sujet suivant Aller en bas 
AuteurMessage
chouin123
Quelqu'un.


Nombre de messages : 3
Date d'inscription : 24/03/2005

MessageSujet: maurice au bistro(violon converti en guitare)   Jeu 24 Mar - 20:08

Voici le bout de violon au début de Maurice au Bistro mais pour les guitariste!

Code:
1 string|----0-2-3-2-0-3-------2-3-2-0-3---------2-3-2-0-3-------------------
2 string|--------------------1-----------------3--------------3-----3-4----4-
3 string|---------------------------------------------------------4-----4----
4 string|--------------------------------------------------------------------
5 string|--------------------------------------------------------------------
[/code]

_________________
Québec, mon PAYS...


Dernière édition par le Ven 25 Mar - 18:50, édité 1 fois
Revenir en haut Aller en bas
Voir le profil de l'utilisateur
le_beau_andré
Disciple.
avatar

Nombre de messages : 35
Localisation : Boucherville
Date d'inscription : 10/12/2004

MessageSujet: Re: maurice au bistro(violon converti en guitare)   Ven 25 Mar - 11:52

Ou à la mandoline

Code:

E-------0-1-0----1------0-1-0------1--------0-1-0----1--------------
A---5----------5-----2----------5---------------------5----3-0-3-4-0-4-5
D------------------------------------------5----------------------------
G-----------------------------------------------------------------------

Voilà!
Revenir en haut Aller en bas
Voir le profil de l'utilisateur http://quebecos.darktech.org
superfabiobros
Quelqu'un.


Nombre de messages : 2
Date d'inscription : 29/03/2005

MessageSujet: Re: maurice au bistro(violon converti en guitare)   Mar 29 Mar - 22:20

Autre version de l intro plus les couplet pis le refrain...

INTRO
Dm Bb G C A
----------------------------------------------------------------------
-3--5-6--5-3-6-----5-6--5-3-6-----5-6--5-3-6----------------2--
------------------3----------------0----------------3--0-3-4--2----
----------------------------------------------------------------------
----------------------------------------------------------------------
----------------------------------------------------------------------

COUPLETS x2
(le nombre de fois qui a l chiffre c le nombre de temps qula note est jouee)
Dm Bb G C A
-55555555-6666666-5-33333333--------------------------------
---------------------------------------5555-2222------------------
----------------------------------------------------------------------
----------------------------------------------------------------------
----------------------------------------------------------------------
----------------------------------------------------------------------

REFRAIN x2
(comme pour les couplets)
Bb F C A
------------------5555----------------------------------------------
-33/66--33/66---------1111--5555--2222------------------------
----------------------------------------------------------------------
----------------------------------------------------------------------
----------------------------------------------------------------------
----------------------------------------------------------------------

Voila! Desoler chu pas capab de taber le reel....j essaye mais bon....
Revenir en haut Aller en bas
Voir le profil de l'utilisateur
Contenu sponsorisé




MessageSujet: Re: maurice au bistro(violon converti en guitare)   

Revenir en haut Aller en bas
 
maurice au bistro(violon converti en guitare)
Voir le sujet précédent Voir le sujet suivant Revenir en haut 
Page 1 sur 1
 Sujets similaires
-
» La guitare
» Mon petit chat - Maurice Carême
» Maurice Limat
» réédition de "Chair Fraîche" de Maurice Drack
» Marrou Maurice

Permission de ce forum:Vous ne pouvez pas répondre aux sujets dans ce forum
Le Forum Jaune :: La musique des Cowboys Fringants-
Sauter vers: