Le Forum Jaune

Désormais moribond
 
AccueilAccueil  RechercherRechercher  S'enregistrerS'enregistrer  ConnexionConnexion  Le Raton LaveurLe Raton Laveur  

Partagez | 
 

 8 secondes - picking

Voir le sujet précédent Voir le sujet suivant Aller en bas 
AuteurMessage
Raton
Grand Maître
avatar

Nombre de messages : 449
Localisation : Verdun
Date d'inscription : 08/12/2004

MessageSujet: 8 secondes - picking   Sam 26 Mar - 2:10

Voici ce que Skatanic a trouvé. C'est très proche, mais la fin me semble pas complètement juste. Si vous avez envie de gosser là-dessus, amusez-vous. Capo 4.

Code:
  Quand il ne restera...
          DM      AM      DM        AM      DM      C      F          DM
AM E A7      DM      AM      DM
-------------1-------0-------0/1-------0-------1-------0-------1--1-1--1--0--0--0-0-0--1---1-------0---1
----------------3------1---------3-------1-------3-------1----------1--3--1--0--2-3-2--3-----3-------1-3
-----------2-------2-------2---------2-------2-------0-------2--2---2--2--2--1--0-0-0--2-2-------2-----2
---------0---------------0-----------------0---------------------------0--2--2--2-2-2--0---------------0
-----------------0-----------------0---------------3-------------------X--0--2--0-0-0--X-------0-------x
-----------------------------------------------------------1-----------X--0--0--X-X-X--X---------------X


Dernière édition par le Mar 12 Juil - 22:58, édité 2 fois
Revenir en haut Aller en bas
Voir le profil de l'utilisateur http://www.ratonlaveur.tk
superfabiobros
Quelqu'un.


Nombre de messages : 2
Date d'inscription : 29/03/2005

MessageSujet: Re: 8 secondes - picking   Mar 29 Mar - 21:56

La fin c est....

Dm Am E A7 Dm Am Dm
--1---0--0----0------- ----1---0------------1----- 1---------
--3---1--0----2--3-2-- ---3----------------------- 3----------
--2---2--1----0-------- ---2------2------2-----2--2----------
--0---2--2----2-------- ---0----------0------------0---------
-----0--2----0-------- -------------------------------
------------------------- --------------------------

Le dernier boute a l air bizare tu seul mais si tu chantes en meme tant ca sonne parfait!!! Le premier Dm arrive sur le NE pis la derniere shot que tu fais le Dm au complet c est sur le GONDE de secondes.
Revenir en haut Aller en bas
Voir le profil de l'utilisateur
Raton
Grand Maître
avatar

Nombre de messages : 449
Localisation : Verdun
Date d'inscription : 08/12/2004

MessageSujet: Re: 8 secondes - picking   Mar 12 Juil - 22:58

Si quelqu'un pouvait confirmer l'une ou l'autre version, ce serait blood...

Les deux sont en ligne à partir de maintenant, anyway.
Revenir en haut Aller en bas
Voir le profil de l'utilisateur http://www.ratonlaveur.tk
Contenu sponsorisé




MessageSujet: Re: 8 secondes - picking   

Revenir en haut Aller en bas
 
8 secondes - picking
Voir le sujet précédent Voir le sujet suivant Revenir en haut 
Page 1 sur 1
 Sujets similaires
-
» [Adams, Carrie] Secondes noces
» [Fossum, Karin] Secondes noires
» [Discussion] Les 30 premières secondes qui comptent !
» Des quarts de secondes de 20h37 et 54 s. et demi.
» Sonnerie qui se coupe aprés 2 secondes

Permission de ce forum:Vous ne pouvez pas répondre aux sujets dans ce forum
Le Forum Jaune :: La musique des Cowboys Fringants-
Sauter vers: