Le Forum Jaune

Désormais moribond
 
AccueilAccueil  RechercherRechercher  S'enregistrerS'enregistrer  ConnexionConnexion  Le Raton LaveurLe Raton Laveur  

Partagez | 
 

 l'hiver approche (bass tab)

Voir le sujet précédent Voir le sujet suivant Aller en bas 
AuteurMessage
chouin123
Quelqu'un.


Nombre de messages : 3
Date d'inscription : 24/03/2005

MessageSujet: l'hiver approche (bass tab)   Sam 26 Mar - 12:22

L'hiver Approche pour la Bass!


Code:
Juste avant -= J'joue dans le trafic... =-

G-|----|----|
D-|----|----|
A-|-3--|----|
E-|----|----|


Couplet

G-|-------|-------|------|-------|------|-------|---------|--------|
D-|-5--5--|-3--3--|-1----|-------|-1----|-------|---------|--------|  X2
A-|-------|-------|------|-1--1--|------|-1--1--|-0----0/-|-3-3-5--|
E-|-------|-------|------|-------|------|-------|---------|--------|


-= Pont Mercier un accident d'truc =-

G-|--------|---------|-------|-------|-------|---------|-------|-------|
D-|--------|-----7-8-|-9-----|-9-----|-7-----|-7----7--|----4--|----4--|
A-|-10-----|-10------|----9--|----9--|----7--|----7----|-2-----|-2-----|
E-|----10--|---------|-------|-------|-------|---------|-------|-------|

G-|-------|-------|-------|-------|-------|-------|----4--|-5--4--|
D-|-------|----2--|-5-----|-------|-------|-4--5--|-7-----|-------|
A-|-3-----|-3-----|----5--|----2--|-5--7--|-------|-------|-------|
E-|----3--|-------|-------|-3-----|-------|-------|-------|-------|

G-|--------|---------|-------|-------|-------|---------|-------|-------|
D-|--------|-----7-8-|-9-----|-9-----|-7-----|-7----7--|----4--|----4--|
A-|-10-----|-10------|----9--|----9--|----7--|----7----|-2-----|-2-----|
E-|----10--|---------|-------|-------|-------|---------|-------|-------|

G-|--------|-------|-------|-------|-------|-------|-------|--------|
D-|--------|-------|-------|-------|-------|-------|-------|--------|
A-|-3------|-3--2--|-------|----3--|-5-----|-5-----|-5-----|-5------|
E-|----3---|-------|-3--5--|-7-----|----5--|----5--|----5--|----578-|


-= La terre entiere carbure au fric =-

G-|-------|-------|------|-------|------|-------|---------|--------|
D-|-5--5--|-3--3--|-1----|-------|-1----|-------|---------|--------|
A-|-------|-------|------|-1--1--|------|-1--1--|-0----0/-|-3-3-5--|
E-|-------|-------|------|-------|------|-------|---------|--------|

G-|-------|-------|------|-------|------|-------|---------|--------|------|
D-|-5--5--|-3--3--|-1----|-------|-1----|-------|---------|--------|-7----|
A-|-------|-------|------|-1--1--|------|-1--1--|-0----0/-|-3-3-5--|------|
E-|-------|-------|------|-------|------|-------|---------|--------|------|

G-|-------|-------|------|-------|------|-------|---------|--------|
D-|-7--7--|-5--5--|-3----|-------|-3----|-------|---------|--------|
A-|-------|-------|------|-3--3--|------|-3--3--|-2----2/-|-5-5-7--| X2
E-|-------|-------|------|-------|------|-------|---------|--------|


-= Payer plus tard... =-

G-|-------|----45-|-6-----|-6-----|-------|-------|-------|-------|
D-|-7-----|-7-----|----6--|----76-|-4-----|-4---4-|----6--|----6--|
A-|----7--|-------|-------|-------|----4--|----4--|-4-----|-4-----|
E-|-------|-------|-------|-------|-------|-------|-------|-------|

G-|-------|-------|-------|-------|-------|-------|----6--|-7--6--|
D-|-------|----4--|-7-----|-------|-------|-6--7--|-9-----|-------|
A-|-5-----|-5-----|----7--|----4--|-7--9--|-------|-------|-------|
E-|----5--|-------|-------|-5-----|-------|-------|-------|-------|

G-|-------|----45-|-6-----|-6-----|-------|-------|-------|-------|
D-|-7-----|-7-----|----6--|----76-|-4-----|-4---4-|-------|-------|
A-|----7--|-------|-------|-------|----4--|----4--|-4--5--|-4--4--|
E-|-------|-------|-------|-------|-------|-------|-------|-------|

G-|--------|-------|-------|-------|-------|-------|-------|------------|
D-|--------|-------|-------|-------|-------|-------|-------|------------|
A-|-5------|-5--4--|-------|----5--|-7-----|-7-----|-7-----|-7----------|
E-|----5---|-------|-5--7--|-9-----|----7--|----7--|----7--|-----7-9-10-|

-= J'lou ma vie... =-

G-|-------|-------|------|-------|------|-------|---------|--------|
D-|-7--7--|-5--5--|-3----|-------|-3----|-------|---------|--------|
A-|-------|-------|------|-3--3--|------|-3--3--|-2----2/-|-5-5-7--| X2
E-|-------|-------|------|-------|------|-------|---------|--------|

Derniere partie

G-|-------|-------|------|-------|------|-------|---------|--------|
D-|-9--9--|-7--7--|-5----|-------|-5----|-------|---------|--------|
A-|-------|-------|------|-5--5--|------|-5--5--|-4----4/-|-7-7-9--|
E-|-------|-------|------|-------|------|-------|---------|--------|

G-|-------|-------|------|-------|------|-------|---------|--------|
D-|-9--9-9|-7--7--|-5----|-------|-5----|-------|---------|--------|
A-|-----9-|-------|------|-5--5--|------|-5--5--|-4----4/-|-7-7-9--|
E-|-------|-------|------|-------|------|-------|---------|--------|

_________________
Québec, mon PAYS...
Revenir en haut Aller en bas
Voir le profil de l'utilisateur
Raton
Grand Maître
avatar

Nombre de messages : 449
Localisation : Verdun
Date d'inscription : 08/12/2004

MessageSujet: Re: l'hiver approche (bass tab)   Sam 26 Mar - 13:36

Tant qu'à y être, voici un fichier zip qui contient deux autres versions de cette tablature ainsi que la partition de mandoline jouée dans les bouts rapides.

hiver.zip

Ce sont des tablatures, car je crois me souvenir que les livres de partitions n'en contiennent aucune, mais uniquement des vraies partitions. Si je me trompe, veuillez me afire signe.

EDIT: Maintenant que le fichier «Tabs en vrac» est en ligne, ce sujet est inutile et donc fermé.
Revenir en haut Aller en bas
Voir le profil de l'utilisateur http://www.ratonlaveur.tk
 
l'hiver approche (bass tab)
Voir le sujet précédent Voir le sujet suivant Revenir en haut 
Page 1 sur 1
 Sujets similaires
-
» L'hiver approche qu'avez vous prévue ?
» Confiture de pastèque (ou melon d'hiver)
» Toutes les activitees de cet hiver 2010-2011
» Ma tenue d'hiver ( enfin d'automne)
» [PLANNING] LES ANIMES DE LA SAISON HIVER 2008-9 !!!

Permission de ce forum:Vous ne pouvez pas répondre aux sujets dans ce forum
Le Forum Jaune :: La musique des Cowboys Fringants-
Sauter vers: